martes, 20 de enero de 2015

Paixão Adolescente (Thalles Roberto)

Alabanza: "Paixão Adolescente" Interprete: Thalles Roberto Letras y Notas:


Tono: G
  
Intro 2x: G7+ D7+


E|---------0h2-0|---------0h2-0-|---------0h2-0----|---------0h2-0-|
B|------3-------|-------3-------|-------3----------|-------3-------|
G|----0---------|-----0---------|-----0------------|-----0---------|
D|--------------|---------------|------------------|---------------|
A|--------------|---------------|------------------|---------------|
E|---3----------|---3-----------|---3--------------|---3-----------|




E|--------0h2-0-|--------0h2-0--|--------0h2-0-----|--------0h2-0--|
B|------3-------|------3--------|------3-----------|------3--------|
G|----2---------|----2----------|----2-------------|----2----------|
D|--0-----------|--0------------|--0---------------|--0------------|
A|--------------|---------------|------------------|---------------|
E|--------------|---------------|------------------|---------------|




  G7+
Estou apaixonado como quando eu era adolescente
  D7+
Aleluia
   G7+                                            D7+
Meu corpo ta tremendo eu não controlo a vontade de gritar

Então eu vou gritar

  G7+
Ôôôôôôôô
  D7+
Ôôôôôôôô
  G7+
Ôôôôôôôô
  D7+
Ôôôôôôôô

    G7+
To amando, que delícia
    D7+
Exagero de euforia
    G7+
Alegria é mais forte do que eu
    D7+
Que eu, que eu
    G7+
Ver as promessas se cumprindo
    D7+
Maravilha essa vida
    G7+
Tá chegando a hora e eu vou
    D7+
Vou encontrar o meu amor, no céu aiaiaiai

   G7+     F#m7
Espirito santo
            Em7               D7+
Eu não sei viver se não for assim
  G7+             F#m7
Cheio do senhor em mim
            Em7
Eu te quero mais que a vida
 F7+
Eu te amo
 D7+
E ohhhh

 G7+
Laralaralaralala...
 D7+
Laralaralaralala... Oh
 G7+
Laralaralaralala...
 D7+
Laralaralaralala... Oh

Intro: G7+ D7+ (2x)

0 comentarios:

Publicar un comentario

Devocional Diario.com

Letras de Alabanzas

Ver Videos Chistosos.com

Imagenes Cristianas para Facebook

Imagenes Cristianas para Hi5

Archivos

Papel Tapiz Cristianos

Bosquejos Cristianos

Textos y Versiculos Biblicos

  ©Template by Dicas Blogger.