sábado, 17 de julio de 2010

Sólo de Jesús la sangre (En Espíritu y En Verdad)

Alabanza: "Sólo de Jesús la sangre"Interprete: En Espíritu y En Verdad Letras y Notas:



INTRO: B - G#m//

B G#m B G#m
Tu Sangre, habla mejor, Que todo el clamor, Que en esta tierra hay

F# E B G#m F#
Justicia para mí, Se para a mi favor, Jesús tu Sangre es //

CORO:
B G#m
Que nos puede perdonar, Que nos puede completar
F# E B G#m F#
Solo de Jesús, solo de Jesús la Sangre
B G#m
Que te da otro corazón, y te hace amigo de Dios
F# E B F# E
Solo de Jesús, solo de Jesús la sangre

B G#m B G#m
Tu Cruz habla del amor, De su corazón, Un camino nos abrió
F# E
Me acerco con valor, sin Confianza Terrenal,
B G#m F#
Jesús tu Sangre es

CORO:

B G#m
Que nos puede perdonar, Que nos puede completar
F# E B G#m F#
Solo de Jesús, solo de Jesús la Sangre
B G#m
Que te da otro corazón, y te hace amigo de Dios
F# E B F# E
Solo de Jesús, solo de Jesús la sangre

PUENTE:
B G#m F#
Gracias por tu Cruz, Gracias por tu Cruz, solo de Jesús,
E B
solo de Jesús la sangre

Final: B – F# - E.


Read more...

Siguiendo la nube (En Espíritu y En Verdad)

Alabanza: "Siguiendo la nube"Interprete: En Espíritu y En Verdad Letras y Notas:



INTRO: B- F#- G#m- E

B F# G#m
LO QUE HACE A MI CORAZÓN PALPITAR
F# E
EL DESEO QUE DOMINA MI PENSAR
F#
ES TU PRESENCIA OH JESUS

B F# G#m
LA SED QUE NADIE PUEDE APAGAR
F# E
EL HAMBRE QUE NO PUEDO CONTROLAR
F#
POR TU PRESENCIA OH SEÑOR

B F#
DE DÍA Y DE NOCHE ES MI SOÑAR
G#m F#
EL ANHELO QUE TENGO ES ALCANZAR
E F#
TU PRESENCIA, MI DIOS TU PRESENCIA

CORO:
B F# G#m F#
SEGUIRE EN EL BUSCAR, YO LO VOY A CAUTIVAR
E F#
SIGUIENDO LA NUBE, LA NUBE DE TU PRESENCIA
B F# G#m F#
SEGUIRE EN EL BUSCAR, NO LO DEJARE ESCAPAR
E F#
SIGUIENDO LA NUBE, LA NUBE DE TU PRESENCIA

Read more...

Sólo Dios puede salvar (En Espíritu y En Verdad)

Alabanza: "Sólo Dios puede salvar"Interprete: En Espíritu y En Verdad Letras y Notas:



Intro:

E|----------
B|----12-14-
G|-14-------

D, A, F#m, E


verso 1:

D A F#m
Todos necesitan amor que nunca falla
E D
tu gracia y compacion
D A F#m
todos necesitan perdon y esperanza
E D
y un Dios que salve


E|-----------
B|-7-9-10-12-
G|-7-9--9--9-
D|-7-9--7--9-
A|-5-7-------
e|-----------

D, E, D, E

Coro:

A E
Cristo puede mover montes
D A
solo Dios puede salvar
F#m E
mi Dios puede salvar
A E
por siempre autor de salvacion
D A
Jesus la muerte vencio
F#m E
El la muerte vencio


verso 2:

D A F#m
Aun en mis temores, se que me aceptas
E D
llename otra vez
D A F#m
mi vida te ofresco para seguir tus pasos
E D
a ti me rindo


Coro:

A E
Cristo puede mover montes
D A
solo Dios puede salvar
F#m E
mi Dios puede salvar
A E
por siempre autor de salvacion
D A
Jesus la muerte vencio
F#m E
El la muerte venció


Solo:
D

|---9---9---9--9---9---9---9---9--9--9|
|--10--10--10-10--10--10--10--10-10-10|
|-9---9---9----9--9----9---9----------|
|-------------------------------------|
|-------------------------------------|
|-------------------------------------|

A E F#m

|-------------------------------------|
|-99999999-121212121212-212121212121s-|
|-------------------------------------|
|-------------------------------------]
|-------------------------------------|
|-------------------------------------|

D
|--9--9--7--9--7--9--7--9--9--7--9-9--|
|-10-10-10-10-10-10-10-10-10-10-10-10-|
|-------------------------------------|
|-------------------------------------|
|-------------------------------------|
|-------------------------------------|

A E F#m
|---------------------------------------|
|-99999999-121212121212-21212121212121s-|
|---------------------------------------|
|---------------------------------------|
|---------------------------------------|
|---------------------------------------|

outro:
D A E
En la tierra tu luz brillara
D A E
cantamos por la gloria de tu majestad

Read more...

Devocional Diario.com

Letras de Alabanzas

Ver Videos Chistosos.com

Imagenes Cristianas para Facebook

Imagenes Cristianas para Hi5

Archivos

Papel Tapiz Cristianos

Bosquejos Cristianos

Textos y Versiculos Biblicos

  ©Template by Dicas Blogger.