viernes, 14 de diciembre de 2012

Notas: When It Rains - Paramore

Alabanza: "When It Rains" Interprete: Paramore Letras y Notas:


Intro 1 - 2x: Cm




Intro 2: Ab Cm Eb Ab Bb Cm (2x)




E|-----11---11----11-13-13----15-15----11----11----11--------------------|
B|--11---11----11----------11--------11----11----11----11--9--11--9--8~--|
G|-----------------------------------------------------------------------|
D|-----------------------------------------------------------------------|
A|-----------------------------------------------------------------------|
E|-----------------------------------------------------------------------|




E|-----11---11----11-13-13----15-15----11----11----11-----------------------|
B|--11---11----11----------11--------11----11----11----11--9--11--9--8--8--4|
G|--------------------------------------------------------------------------|
D|--------------------------------------------------------------------------|
A|--------------------------------------------------------------------------|
E|--------------------------------------------------------------------------|




               Cm
And when it rains,
                 Ab          Eb
On this side of town it touches,
 Cm
Everything.
              Ab           Eb
Just say it again and mean it.




We don't miss a thing,
Fm                                           Eb
You made yourself a bed at the botthe of the blackest hole
        Fm
And convinced yourself that
                         Eb                     Bb
It's not the reason you don't see the sun anymore




    Ab        Cm            Eb
And oh, oh, how could you do it?
Ab      Bb         Cm
Oh I, I never saw it coming.
Ab        Cm           Eb
Oh, oh, I need an ending.
    Ab            Bb
So why can't you stay
            Cm        Eb
Just long enough to explain?




( Cm )
             Cm
And when it rains,
                 Ab        Eb
Will you always find an escape?
               Cm
Just running away
                 Ab        Eb
From all of the ones who love you,




From everything
Fm                                             Eb
You made yourself a bed at the botthe of the blackest hole
             Fm
And you'll sleep 'til May
                                     Eb                   Bb
And you'll say that you don't want to see the sun anymore




    Ab        Cm           Eb
And oh, oh, how could you do it?
Ab      Bb        Cm
Oh I, I never saw it coming.
Ab       Cm            Eb
Oh, oh, I need an ending.
    Ab            Bb
So why can't you stay
           Cm         Eb
Just long enough to explain?




Cm    Bb   Ab
Take your time.
Cm    Bb   Ab
Take my time.




Cm                     Bb
Take these chances to turn it around.
Ab
And take these chances, we'll make it somehow
Cm                          Bb
Take these chances to turn it around.
       Ab
Just turn it around.




    Ab       Cm           Eb
And oh, oh, how could you do it?
Ab      Bb         Cm
Oh I, I never saw it coming.
   Ab        Cm           Eb
And oh, oh, how could you do it?
Ab     Bb         Cm
Oh I, I never saw it coming.
    Ab        Cm           Eb
And oh, oh, how could you do it?
Ab      Bb        Cm
Oh I, I never saw it coming.
Ab        Cm         Eb
Oh, oh, I need an ending.
    Ab            Bb
So why can't you stay
           Cm       Eb
Just long enough to explain?




Cm                 Bb            Ab
You can take your time, take my time.

Read more...

Devocional Diario.com

Letras de Alabanzas

Ver Videos Chistosos.com

Imagenes Cristianas para Facebook

Imagenes Cristianas para Hi5

Archivos

Papel Tapiz Cristianos

Bosquejos Cristianos

Textos y Versiculos Biblicos

  ©Template by Dicas Blogger.