lunes, 20 de octubre de 2014

Arde Outra Vez (Thalles Roberto)

Alabanza: "Arde Outra Vez" Interprete: Thalles Roberto Letras y Notas:


Tono: A
  

Intro 2x: F#m7(9)  C#m7(9)

                  F#m7(9)
E|-x-x---x---x-x--4p2-4--2--4-2----4---4---
B|-x-x---x---x-x--2---2--2--2-2----2---2---
G|-x-x---x---x-x--2---2--2--2-2----2---2---
D|-x-x---x---x-x--2-------------x----------
A|-x-x---x---x-x----------------x----------
E|-x-x---x---x-x--2-------------x--2-----2-



E|-4--4---4---4p2-4--2--4-2--4-4h5-4-------
B|-2--2---2---2---2--2--2-2--2-2---2--5----
G|-2--2---2---2---2--2--2-2--2-2---2--2----
D|-2--2---2---2--------------2-2-----------
A|-----------------------------------------
E|------2-----2--------------2-2---2--2----



   C#m7(9)
E|-----------------------------------------
B|-4--4--x---4--4-----4--4-----4-----------
G|-4--4--x---4--4-----4--4-----4-----------
D|-x--x--x-x-x--x-----x--x-----x-----------
A|-4-----x-4-------4--4--4--4--------------
E|-----------------------------------------



   C#m7(9)
E|-----------------------------------------
B|-4--4--x---------------------------------
G|-4--4--x---------------------------------
D|-x--x--x-x-2----/6---2h4/5\4p2-----------
A|-4-----x-4---4/----x---------------------
E|-----------------------------------------


Primeira Parte:

F#m7
Eu não quero mais viver
                               C#m7(9)
Longe da tua presença, meu Senhor

Hoje, quero voltar, voltar ao início de tudo
     F#m7
De quando eu era feliz
                             C#m7(9)
Sentia a Tua presença, caminhava ali, no seu jardim

Te encontrava todo dia
           F#m7
Mas me perdi, Senhor, no caminhar

Tentei andar sozinho na aventura
       C#m7(9)
Dessa vida foi só ilusão

Confesso que andei perdido, sim,
               F#m7(9)
Mas, hoje, eu Te devolvo um coração

Arrependido de tudo o que fez
          C#m7(9)
Quero voltar, Senhor, para os Teus rios

Voltar, Senhor, para os Teus rios.


 F#m7
E|------------------------2--2---2---------
B|------------------------2--2---2---------
G|-2----2--x--x-x-------2-2--2---2---------
D|-2----2--x--x-x-------2-2--2---2---------
A|-4--4-4--x--x-x--4--4-4------------------
E|-2—-0-2--x--x-x--2--0-2------4-----------



 C#m7(9)
E|------------------------2--2---2---------
B|-4----4---------------4-4--4---4---------
G|-4----4--x--x-x-------4-4--4---4---------
D|-2----2--x--x-x-------2-2--2---2---------
A|-4--4-4--x--x-x--4--4-4------4-----------
E|-----------------------------------------


Refrão 2x:

    A7M(9)    G#m7(13-)  F#m7(11)
Me molha, me lava, me ensina
             A7M(9)   G#m7(13-)
Me inspira e arde outra vez
        F#m7(11)
No meu coração

    A7M(9)    G#m7(13-)  F#m7(11)
Me molha, me lava, me ensina
             A7M(9)   G#m7(13-)
Me inspira e arde outra vez
        C#m7(9)
No meu coração


 A7M(9)       G#m7(13-)     F#m7(11)
E|-0---0-0---0--0----0-0---0--0----0-0---0-
B|-0---0-0---0--0----0-0---0--0----0-0---0-
G|-6---6-6---6--4----4-4---4--2----2-2---2-
D|-6---6-6---6--4----4-4---4--2-2--2-2---2-
A|-----------------------------------------
E|-5-5-----5----4--4-----4----2-2------2---



E|-0-----0-0---0---------------------------
B|-0-----0-0---0---------------------------
G|-2-----2-2---2---------------------------
D|-2--2--2-2---2---------------------------
A|-----------------------------------------
E|-2--2------2-----------------------------



 A7M(9)     G#m7(13-)   C#m7(9)
E|-0---0-0-0--0----0-0-0--0----------------
B|-0---0-0-0--0----0-0-0--4----------------
G|-6---6-6-6--4----4-4-4--4----------------
D|-6---6-6-6--4----4-4-4--2----------------
A|------------------------4----------------
E|-5-5--------4--4-------------------------



Segunda Parte 4x:

            F#m7
De braços abertos, quero Te receber
             C#m7(9)
Filho, Eu estava esperando você
                               F#m7
Pra mim você é tudo que Eu sonhei um dia
        C#m7(9)
Eu te amo.


 F#m7
E|-----------------------------------------
B|-2--2-x----2-2---2--2--2---2--2-2--------
G|-2--2-x----2-2---2--2--2---2--2-2--------
D|-2--2-x----2-2---2--2--2---2--2-2-----2--
A|-4--4-x----4-4---4--4--4---4--4-4---4----
E|-2----x--2-----2---------2--------2------



E|-----------------------------------------
B|-----------------------------------------
G|-----2-----------------------------------
D|-----------------------------------------
A|-4---------------------------------------
E|---2-------------------------------------



 C#m7(9)
E|-----------------------------------------
B|-4--4-x----4-4---4--4--4---4--4-4--------
G|-4--4-x----4-4---4--4--4---4--4-4--------
D|-2--2-x----2-2---2--2--2---2--2-2-----2--
A|-4--4-x--4-----4---------4----------4----
E|------x----------------------------------



E|-----------------------------------------
B|---------4-------------------------------
G|--4--------------------------------------
D|------2----------------------------------
A|----4------------------------------------
E|-----------------------------------------



 C#m7(9)
E|-----------------------------------------
B|-4--4-x--------------4-------------4-4---
G|-4--4-x--------------4-------------4-4---
D|-2--2-x------2\1-----------2\1-----------
A|-4--4-x--2-4-----2h4---2-4-----2h4-4-4-4-
E|------x----------------------------------



E|-----------------------------------------
B|-4---------------------------------------
G|-4---------------------------------------
D|-----------------------------------------
A|-4---------------------------------------
E|-----------------------------------------



 F#m7(9) C#m7(9)
-4-------0---0---------------------------
-2-------4---4---------------------------
-2-------4---4---------------------------
-2-------2---2---------------------------
-4-------4---4---------------------------
-2--------------------------------------



(Intro 2x)

(Primeira Parte)

Refrão 2x:

    A7M(9)   G#m7(13-)   F#m7(11)
Me lava, me molha, me ensina
             A7M(9)      G#m7(13-)
Me inspira e arde outra vez
        F#m7(11)
No meu coração

    A7M(9)    G#m7(13-)  F#m7(11)
Me molha, me lava, me ensina
             A7M(9)      G#m7(13-)
Me inspira e arde outra vez
     F#m7(11)
com fogo, com fogo!

    A7M(9)    G#m7(13-)
Me molha, me lava,
         F#m7(11)
A glória          da segunda casa Deus....

         A7M(9)  G#m7(13-)     F#m7(11)
A glória                   me molha

  A7M(9)  G#m7(13-)   F#m7(11)  A7M(9)  G#m7(13-)  F#m7(11)
Deus,               Deus

               C#m7(9)
No meu coração

  A7M(9)  G#m7(13-)      F#m7(11)
E arde outra vez no meu coração
  A7M(9)  G#m7(13-)      F#m7(11)
E arde outra vez no meu coração
  A7M(9)  G#m7(13-)      F#m7(11)
E arde outra vez no meu coração
  A7M(9)  G#m7(13-)      C#m7(9)
E arde outra vez no meu coração

Read more...

Devocional Diario.com

Letras de Alabanzas

Ver Videos Chistosos.com

Imagenes Cristianas para Facebook

Imagenes Cristianas para Hi5

Archivos

Papel Tapiz Cristianos

Bosquejos Cristianos

Textos y Versiculos Biblicos

  ©Template by Dicas Blogger.