domingo, 23 de diciembre de 2012

Acordes: Santo - C.R.E.D.O

Alabanza: "Santo" Interprete: C.R.E.D.O Letras y Notas:


INTRO: D




E--2--2--2--2--2--2--2--2--2--2--2--2--2--
B--3--2--3--2--3--2--3--2--3--2--3--2--3--
G--2--2--2--2--2--2--2--2--2--2--2--2--2--
D--0-----0-----0-----0-----0-----0-----0--




E--2--2--2--2--2--2--2--2--2--2--2--2--2--2--2-
B--3--2--3--2--3--2--3--2--3--2--3--2--3--2--3-
G--2--2--2--2--2--2--2--2--2--2--2--2--2--2--2-
D--0-----0-----0-----0-----0-----0-----0-----0-




(DOS VECES)








A--0-2-3-2-------
E----------3-7-5-








D         E/D       G        D
Cristo te amo, tu eres mi verdad
   Bm      E/D       G             D
mi vida entera, la rindo ante tu altar
 G          F#/D      Em        C A
Gloria por siempre, majestuoso Reey




D  F#/D  G   A   Bm    Em
Saanto,  Santo, Santo Dios
                G             A
ven y toma tu lugar, en mi corazon
               D
Tu nombre es Santo








Cristo te amo, tu eres mi verdad
mi vida entera, la rindo ante tu altar
gloria por siempre, majestuoso Rey








Santo, Santo, Santo Dios
ven y toma tu lugar, en mi corazon
            A--0-2-3-2-------
            E----------3-7-5-
tu nombre es Santo
            A--0-2-3-2-0------
            E----------------
tu nombre es Santo




   A--2-4-5-4-2-----
   E----------------




Sube a E




E  G#/E  A  B  G#m    C#m
Saanto, Santo, Santo Dios
                A              B
ven y toma tu lugar, en mi corazón
               E
tu nombre es Santo












Notas:




E/D     F#/D




E--4--  --2--
B--5--  --3--
G--4--  --2--
D--0--  --0--
A       -----
E       --2--

Read more...

Devocional Diario.com

Letras de Alabanzas

Ver Videos Chistosos.com

Imagenes Cristianas para Facebook

Imagenes Cristianas para Hi5

Archivos

Papel Tapiz Cristianos

Bosquejos Cristianos

Textos y Versiculos Biblicos

  ©Template by Dicas Blogger.