miércoles, 19 de diciembre de 2012

Acorde: Amando sin amar - C.R.E.D.O

Alabanza: "Amando sin amar" Interprete: C.R.E.D.O Letras y Notas:


INTRO
e|-----------------------------------------------
B|-----------------------------------------------
G|-----------------------------------------------  (se repite 2 veces)
D|-----5-4--7-7-7-7-5-5------5-4-----------------
A|-5/7-3-2--5-5-5-5-3-3--5/7-3-2--7-7-------7----
E|-3/5-------------------3/5------5-5-0-3-5-5----








Am7            Dm                       Am7
Era una tarde gris cuando llegaste a mí
               Dm                    Am7
A punto de morir y amando sin amar.
                  Dm                  Am7
Y siendo un pecador tuviste compasión
                   Dm     (F)
Mas nada te importó por salvar mi corazón








Puente::
F              G                      Am (A5-B5-C5-D5-E5)
No puedo entender porque me amaste tanto
F              G                         (C)
No puedo entender lo grande que es tu amor.




                                      e|-----------------
                                      B|---------------------
                                      G|-------------------------
                                      D|-5/7-7/5-5/7-7--7-7/5-5/7-7-
                                      A|-3/5-5/3-3/5-5--5-5/3-3/5-5-
                                      E|--------------------
            ¡¡No, no, noo!!




CORO
C            G                     Am
Amando sin amar, cargando alguna cruz
               F         G            C
Solo y abandonado tú llegaste con tu luz,
                G                  Am
Mi mundo se cambió por nuevos horizontes
    G             F     G
Cuando estaba perdido amando sin amar.




(Se repite Intro)
e|-----------------------------------------------
B|-----------------------------------------------
G|-----------------------------------------------
D|-----5-4--7-7-7-7-5-5------5-4-----------------
A|-5/7-3-2--5-5-5-5-3-3--5/7-3-2--7-7-------7----
E|-3/5-------------------3/5------5-5-0-3-5-5----




(Se repite la ronda de notas de la Primer Estrofa)




Llegaste justo a tiempo como agua en el desierto
Calmándome la ser sembraste en mi la fe.
Y siendo un pecador tuviste compasión
Mas nada te importo por salvar mi corazón.




(Puente)




(CORO)




SOLO:
         C                           G
e|---------------------------------------------------------------
B|---------------------------------------------------------------
G|--/9~-/17-17-17-17-17-17-17-17-17-12-12-12-12-12-12-12-12-12--
D|---------------------------------------------------------------




     Dm                Dm  Em    F    Em Dm Em C    G
e|-------------------------------------------------------------------
B|---------------------15-17-17b(18)br17-15h17-13-15b(17)br15-p13h15-
G|--5-5-5-5-5-5-5-5--/----------------------------------------------
D|-------------------------------------------------------------------




    Dm
e|----12--12-13-13/15---12--12-13-13/15----------------------------
B|--13--13------------13--13---------------------------------------
G|-----------------------------------------------------------------
D|-----------------------------------------------------------------




    F                                G             C
e|-15b(16)br15p13-12h13p12-13------------------------------------
B|---------------------------13--13-15/17-15-13-12-13~-----------
G|-----------------------------12--------------------------------
D|---------------------------------------------------------------












Puente Final:
C         G        Dm    F          C
Sin una luz estaba yo amando sin amar,
           G           Dm     F            C
Sin el perdón sin la razón amando sin amar.
           G            Dm       F             C
Llegaste a mí con salvación con un manto de paz
           G             Dm
Llegaste a mí con tu perdón,
    F          C    G     Dm
Me diste libertaaaaaaaaaaaaaad
    F              C     G     Dm
cuando yo estaba maaaaaaaaaaaaaaal.




Amando sin amar!!!




FINAL
e|-----------------------------------------------
B|-----------------------------------------------
G|-----------------------------------------------
D|-----5-4--7-7-7-7-5-5------5-4-----------------
A|-5/7-3-2--5-5-5-5-3-3--5/7-3-2--7-7-------7----
E|-3/5-------------------3/5------5-5-0-3-5-5----

Read more...

Devocional Diario.com

Letras de Alabanzas

Ver Videos Chistosos.com

Imagenes Cristianas para Facebook

Imagenes Cristianas para Hi5

Archivos

Papel Tapiz Cristianos

Bosquejos Cristianos

Textos y Versiculos Biblicos

  ©Template by Dicas Blogger.