sábado, 22 de diciembre de 2012

Acordes: Que puedo hacer - C.R.E.D.O

Alabanza: "Que puedo hacer" Interprete: C.R.E.D.O Letras y Notas:


INTRO
        A#5(x4)      D        Am  D         G           Gm        D
e ------------------------------------------------------------------
B -15/0-----------5-7---5-7-8-5---7b(8)-7p5----7b(8)-7p5-3-3/9p8p7--
G ---------------7-----7---------7---------4--4---------------------
D -------8888---7---------------------------------------------------
A -------8888-------------------------------------------------------
E -------6666-------------------------------------------------------
















D        Bm             E
Tal vez caí, tal vez falle
               G                 D
Tal vez respondiste y no te escuche.
        Bm           E
Mi corazón quiere saber
              G                   Em
Cual es el camino y que tengo q hacer.








::Puente::
         G            E
Para llegar a tu corazón
            A# A# A# A#
Dime por favor.




-:: CORO ::-
            D
Qué puedo hacer
           Am         D
Para escuchar tu voz,
            G             Gm
En esta tormenta sin respuestas
             D
Qué puedo hacer.








D         Bm             E
Dicen que tú puedes cambiar
            G                   D
Tambien calmar cualquier tempestad.
            Bm            E
Me acerco a ti, ven cambiame
             G              Em
Quiero escucharte, quiero saber








::Puente::
         G            E
Como llegar a tu corazón
                 A# A# A#
Si eres lo mejor.




-:: CORO::-
             D
Qué puedo hacer
           Am
Para escuchar tu voz,
     D       G          Gm
En esta tormenta sin respuesta.
           D
Qué puedo hacer
               Am      D
Para hacer tu voluntad
                   G
Cuando no hay respuestas
Gm              Em
Oh que puedo hacer.








(este toquesito va antes del Inteludio)
   E       G                 E        (Ax4)
e ---4------5-7-5--         ---4---
B --3------3-------         --3----
G -4--4---4--4-4--- (X3)    -4--4--  (A5 A5 A5 A5)
D -----------------         -------
A -----------------         -------
E -----------------         -------








::INTERLUDIO::




  D      Bm                        E             G                    Em
e-------------------------------------------------------------------------
B-------------------------------------------------------------------------
G-------------------------------------------------------------------------
D-4-5-7-7/12-12-12-12-12----4-5-7-7/120-----------------------------------
A----------------------------------------5/7-5-7/12-10-10-10-10-10-9-7/2-2
E-------------------------------------------------------------------------




         G                         A
e -----------------------------------------------------------------------
B -----------------------------------------------------------------------
G -----------------------------------------------------------------------
D 4-5-7-7/12-12-12-12-12---4-5-7-7/14-14-14-14-14-14-14-14-14-14-14-14-14
A -----------------------------------------------------------------------
E -----------------------------------------------------------------------








-:: CORO::-
             D
Qué puedo hacer
           Am
Para escuchar tu voz,
     D       G          Gm
En esta tormenta sin respuesta.
           D
Qué puedo hacer
               Am      D
Para hacer tu voluntad
                   G
Cuando no hay respuestas
Gm              D
Oh que puedo hacer.

Read more...

Devocional Diario.com

Letras de Alabanzas

Ver Videos Chistosos.com

Imagenes Cristianas para Facebook

Imagenes Cristianas para Hi5

Archivos

Papel Tapiz Cristianos

Bosquejos Cristianos

Textos y Versiculos Biblicos

  ©Template by Dicas Blogger.