miércoles, 28 de abril de 2010

Rey Eterno (En Tu Presencia)

Alabanza: "Rey Eterno"Interprete:En Tu Presencia Letras y Notas:



Intro: G-D-C X4

e------------------------------------
b-----12---------------12------------
g--12----14-12-------12--14-12-------
d--12---------14/17--12-------12/14--x2
a------------------------------------
e------------------------------------


ESTROFA:

G D Am
POR TU AMOR TENGO VIDA Y REDENCION
G D C
POR TU SANGRE VERTIDA VICTORIA Y PERDON
G D C Ebdim Em
YO ME RINDO A TUS PIES Y ABRAZO TU CRUZ
D C
ME AFERRO A ELLA CON TODO MI SER
G D Am
POR TU LLAGA SOY LIBRE DE TODA AFLICCION
G D C
POR SALIR DE ESA TUMBA MI VIDA CAMBIÓ
G D C Ebdim Em
DESPOJASTE TU GLORIA POR MI SALVACIÓN
D C
POR SER EL CAMINO QUE DIRIGE A DIOS
C G Am
ERES LA IMAGEN DE DIOS
G C
EL DADOR DE TODA GRACIA
G Am D
EL PRIMOGENITO DE TODA CREACIÓN

CORO:
G D
REY ETERNO HIJO DE DIOS,
Am C G
PROCLAMAMOS TU GRANDEZA HOY
D Am7 C
A AQUEL QUE ME SALVÓ
G D
DEJARÉ ANTE TI
Am C Em
TODO LO QUE NO TENGA VALOR
D C
PARA QUE VIVAS EN MI
G
ME RINDO ANTE TU CRUZ

INTRO X 2

ESTROFA

CORO

SOLO: G-D-C-D-C-D-C-D-C (NO SE SI SON ESTOS ACORDES)


e-12-17/19-17---15---------17----19-20-19--17-17/19-17-15--
b------------17----15/17-15--------------20--------------15
g----------------------------------------------------------
d----------------------------------------------------------
a----------------------------------------------------------
e----------------------------------------------------------



e-------------15/17-15--------10---------------------------
b-15/17-15-13-----------10/12----8/10-8--------------------
g----------------------------------------------------------
d----------------------------------------------------------
a----------------------------------------------------------
e----------------------------------------------------------


C G Am
ERES LA IMAGEN DE DIOS
G C
EL DADOR DE TODA GRACIA
G Am D
EL PRIMOGENITO DE TODA CREACIÓN

0 comentarios:

Publicar un comentario

Devocional Diario.com

Letras de Alabanzas

Ver Videos Chistosos.com

Imagenes Cristianas para Facebook

Imagenes Cristianas para Hi5

Archivos

Papel Tapiz Cristianos

Bosquejos Cristianos

Textos y Versiculos Biblicos

  ©Template by Dicas Blogger.