domingo, 25 de enero de 2015

Quando Essa Igreja Ora (Thalles Roberto)

Alabanza: "Quando Essa Igreja Ora" Interprete: Thalles Roberto Letras y Notas:


Tono: G
  
Intro 4x: D  C  G

Riff-1


E|----------------------------------------|
B|----------------------------------------|
G|----------------------------------------|
D|-----5--4--3--4-------------------------|(2x)
A|--------- ------------------------------|
E|-5--------------------------------------|


Riff-2


E|----------------------------------------|
B|---------------6------------------------|
G|----------5--7---7----------------------|
D|----5--7--------------------------------|(2x)
A|----------------------------------------|
E|----------------------------------------|


D          C        G D        C       G
Quando essa Igreja ora, Deus começa a operar
D              C          G                       Riff1
Todos os cativos são libertos pela presença de Jesus.
D           C      G       D      C        G
'Invoca-me e te responderei' Assim diz o Senhor.
D             C     G                Riff1
Levante tuas mãos agora e clame a Jesus.
C5                 G5                    Riff2
Eu sei que esse nome tem poder pra libertar.
C5                 G5                   Riff2
Não há nada e ninguém que possa resistir.
C5          G5           Riff2
Ao poder do nome de Jesus
C5          G5          D5 C5  G5
Ao poder do nome ...    de Jesus

Interlúdio 3x: E5 G5 A5 C5

0 comentarios:

Publicar un comentario

Devocional Diario.com

Letras de Alabanzas

Ver Videos Chistosos.com

Imagenes Cristianas para Facebook

Imagenes Cristianas para Hi5

Archivos

Papel Tapiz Cristianos

Bosquejos Cristianos

Textos y Versiculos Biblicos

  ©Template by Dicas Blogger.