sábado, 16 de agosto de 2014

Brilla (Jesús Adrián Romero)

Alabanza: "Brilla" Interprete: Jesús Adrián Romero Letras y Notas:


Intro:

   G           Am         C            G

E|----------3----------------------------|
B|--3---5------5-----3-------------------|
G|---------------------5----------2-4----|
D|-----------------------5-------------5-|
A|---------------------------------------|
E|---------------------------------------|




Verso 1:
G                         Am
Este invierno se extendió más de la cuenta
      C                       G
hace tiempo que no veo la primavera.
                            Am
Hace mucho que no brilla el sol con fuerza
      C                        G
se nubló mi corazón sin darme cuenta.



Pre-Coro:
B|-----1------------------------0-----------------------|
G|---2-----------------------0--------------------------|
D|-------------------------------------------0----------|
A|-0----------------------------------------------------|
E|-------------------------0----------------------------|
  Am                       Em7               D         C
Y añoro la mañana cuando el sol saldrá cuando brillara.



Coro:
E|-------3---|----------------------|-------3---|
B|-3--5-----5|----------------------|-3--5-----5|

   G       C                         G/B
   Brilla desde el cielo luz de vida brilla

   Am7
   ven a deshacer la escarcha

   Em7                    Am
   que este invierno me dejó
                       D|---2-5-|
                    C  A|-5-----|
   este frió abrazador
E|-------3--------------------------|
B|-3--5-----5-----3--1--------------|
   G   Am     C       G|-0---2-4--0-|
   Veeeen,  ven.



Verso 2:
 G                             Am              E|-7--3--0-|
Duele el frió que ha dejado en mi tu ausencia,
         C                          G
duele el aire al respirar sin tu presencia.
                           Am
Ya mi aceite se acabo sin darme cuenta,
      C                         G
y mi lámpara se apaga en la tormenta.

0 comentarios:

Publicar un comentario

Devocional Diario.com

Letras de Alabanzas

Ver Videos Chistosos.com

Imagenes Cristianas para Facebook

Imagenes Cristianas para Hi5

Archivos

Papel Tapiz Cristianos

Bosquejos Cristianos

Textos y Versiculos Biblicos

  ©Template by Dicas Blogger.