lunes, 3 de marzo de 2014

Pienso en tí (Gondwana)

Alabanza: "Pienso en tí" Interprete: Gondwana Letras y Notas:


e |-------------------------------------------  x2
B |------0--3-3-----------------0-1--1-0-1-0--
G |----0---------2----0--2-----------------2-0
D |-------------------------------------------
A |-------------------------------------------
E |-------------------------------------------

G           D   Am           C
 pienso en ti,  siento lo bien que me haces,

G          D         Am           C
 como un flor que nace, dentro de mi,

G     D    Am              C
 puedo ver, que el tiempo corre a prisa,

G              D       Am        C
 pero al ver tu sonrisa, todo va bien,

            G           D
 mas yo veo que al final, solo un latido abra

Am                C              G      D           Am     C
 y en tu alma si, brillara este amooooooor,, dulce amor...

G        D            Am     C
hoooo uo hoooo dulce aamooor..


e |-------------------------------------------  x2
B |------0--3-3-----------------0-1--1-0-1-0--
G |----0---------2----0--2-----------------2-0
D |-------------------------------------------
A |-------------------------------------------
E |-------------------------------------------

G       D  Am         C
 creo en ti, y adoro tu belleza..

G           D           Am             C
 siento la inmenza fuerza, de amrte asi..

G      D  Am                     C
resistire, a la gente que nos separa..

G           D           Am           C
el verbo es ya y me dice, yo soi en ti..

           G           D
mas yo veo que al final, solo un latido abra

Am                 C              G      D           Am    C
 y en tu alma si, brillara este amooooooor,, dulce amor...

G         D             Am     C
hoooo uo hoooo dulce aamooor..

G         D             Am     C
hoooo uo hoooo dulce aamooor..

G         D             Am     C         G...
hoooo uo hoooo dulce aamooor..

0 comentarios:

Publicar un comentario

Devocional Diario.com

Letras de Alabanzas

Ver Videos Chistosos.com

Imagenes Cristianas para Facebook

Imagenes Cristianas para Hi5

Archivos

Papel Tapiz Cristianos

Bosquejos Cristianos

Textos y Versiculos Biblicos

  ©Template by Dicas Blogger.