jueves, 27 de marzo de 2014

Mis mejores días (Deborah Pruneda)

Alabanza: "Mis mejores días" Interprete: Deborah Pruneda Letras y Notas:


LA CANCIÓN BASICAMENTE SE COMPONE DEL SIGUIENTE RIFF.


e--------0----------0---------0----------0-
B-----------3--------------------3---------
G-----2--------2-----------2--------2------
D--0-------------0-------0-------------0---
A------------------------------------------
E------------------------------------------

e--------0----------0----------0---------0-
B-----------3--------------------3---------
G-----2--------2------------2-------2------
D------------------------------------------
A--4-------------4-------4-------------4---
E------------------------------------------

e--------0----------0----------0---------0-
B-----------3--------------------3---------
G-----2--------2------------2-------2------
D------------------------------------------
A--2-------------2-------2-------------2---
E------------------------------------------

e--------0----------0----------0---------0-
B-----------3--------------------3---------
G-----2--------2------------2-------2------
D------------------------------------------
A------------------------------------------
E--3-------------3-------3-------------3---


CORO:

Bm       G
  Mis mejores días
D           A
  Los vivo hoy
Bm       G
  Mis mejores tiempos
D           A
  Comienzan hoy
     Bm            G
Una nueva oportunidad
      D           A
De vivir para brillar
   Bm           G
La luz que eres TÚ
      D       A
Eres TÚ

Eres TÚ

INTERLUDIO


e--------0----------0----
B-----------3------------
G-----2--------2---------
D--0-------------0-------  (CUATRO VECES)
A------------------------
E------------------------


EL RESTO DE LA CANCIÓN SIGUE EL MISMO PATRÓN.

ESTROFA

CORO

SOLO: (Mismos acordes del Coro)

INTERLUDIO: ♫♪Se abre un sol de esperanza♪♫
(Acordes del Coro)

0 comentarios:

Publicar un comentario

Devocional Diario.com

Letras de Alabanzas

Ver Videos Chistosos.com

Imagenes Cristianas para Facebook

Imagenes Cristianas para Hi5

Archivos

Papel Tapiz Cristianos

Bosquejos Cristianos

Textos y Versiculos Biblicos

  ©Template by Dicas Blogger.