jueves, 20 de febrero de 2014

Luz y sombra (Gondwana)

Alabanza: "Luz y sombra" Interprete: Gondwana Letras y Notas:


Intro

G||----------------------|--------------------------| -|-
D||----------------------|--------------------------|  |
A||---------------5--6--7|---------------7--5-------|  | x6
E||--5--5--3--55---------|--5--5--3--55--------8--77| -|-

Nutre y eleva tu alma rasta…
G||-----------------------|-----------------------|
D||-----------------------|-----------------------|
A||--5--5--3--55-----3--55|-----------------------|
E||---------------5-------|--5--5--3--55--0--33--5|

G||-----------------------|-------------|---------|
D||-----------------------|-------------|---------|
A||--5--5--3--55-----3--55|--7--7--6--77|-----5--7|
E||---------------5-------|-------------|--7------|

G||-----------------------|-----------------------|
D||-----------------------|-----------------------|
A||--5--5--3--55-----3--55|-----------------------|
E||---------------5-------|--5--5--3--55--0--33--5|

G||-----------------------|-------------|----------|
D||-----------------------|-------------|----------|
A||--5--5--3--55-----3--55|--7--7--6--77|-----5--77|
E||---------------5-------|-------------|--7-------|

Cuerpo y alma en luz y sombra…
G||----------------------|--------------------------| -|-
D||----------------------|--------------------------|  |
A||---------------5--6--7|---------------7--5-------|  | x4
E||--5--5--3--55---------|--5--5--3--55--------8--77| -|-

Tu amor iniciara la calma…
G||-----------------------|-----------------------|
D||-----------------------|-----------------------|
A||--5--5--3--55-----3--55|-----------------------|
E||---------------5-------|--5--5--3--55--0--33--5|

G||-----------------------|-------------|---------|
D||-----------------------|-------------|---------|
A||--5--5--3--55-----3--55|--7--7--6--77|-----5--7|
E||---------------5-------|-------------|--7------|

G||-----------------------|-----------------------|
D||-----------------------|-----------------------|
A||--5--5--3--55-----3--55|-----------------------|
E||---------------5-------|--5--5--3--55--0--33--5|

G||-----------------------|-------------|---------|
D||-----------------------|-------------|---------|
A||--5--5--3--55-----3--55|--7--7--6--77|-----5--7|
E||---------------5-------|-------------|--7------|

Aquí entra el solo de guitarra…
G||----------------------|--------------------------| -|-
D||----------------------|--------------------------|  | Hasta
A||---------------5--6--7|---------------7--5-------|  | terminar
E||--5--5--3--55---------|--5--5--3--55--------8--77| -|-

0 comentarios:

Publicar un comentario

Devocional Diario.com

Letras de Alabanzas

Ver Videos Chistosos.com

Imagenes Cristianas para Facebook

Imagenes Cristianas para Hi5

Archivos

Papel Tapiz Cristianos

Bosquejos Cristianos

Textos y Versiculos Biblicos

  ©Template by Dicas Blogger.