domingo, 25 de agosto de 2013

Montaña (Salvador)

Alabanza: "Montaña " Interprete: Salvador Letras y Notas:


Intro:
Cm   G
e-3---3---------------------------------||
b-4---3---9-11-8h9p8---6-4h6p4----------||
g-5---4--------------8---------5-4-5-7--||
d-5---5---------------------------------||
a-3---5---------------------------------||
e-3---3---------------------------------||

e---------------------------------------||
b---------------------------------------||
g-8-10-8h10p8-5-3-1-0-------------------||
d---------------------3-1-0h1p0---------||
a-------------------------------3-1-----||
e-----------------------------------4-3-||


 G
e-3------------------------------------||
b-3------------------------------------||
g-4------------------------------------||
d-5------------------------------------||
a-5------------------------------------||
e-3------------------------------------||

            Cm                      G
Si tuvieras fe, como un grano de mostaza
 G              Cm
Eso lo dice el Señor
            Cm                     G
Si tuvieras fe, como un grano de mostaza
 G              Cm
Eso lo dice el Señor


       Fm           Cm          G        Cm
Tu le dirías a la montaña, mueve té! Mueve té!
       Fm           Cm          G        Cm
Tu le dirías a la montaña, mueve té! Mueve té!


     Cm           G                    Cm
Esa montaña se moverá, se moverá, se moverá
     Cm           G                    Cm
Esa montaña se moverá, se moverá, se moverá

0 comentarios:

Publicar un comentario

Devocional Diario.com

Letras de Alabanzas

Ver Videos Chistosos.com

Imagenes Cristianas para Facebook

Imagenes Cristianas para Hi5

Archivos

Papel Tapiz Cristianos

Bosquejos Cristianos

Textos y Versiculos Biblicos

  ©Template by Dicas Blogger.